ISO-10303-21;
HEADER;
/* Generated by software containing ST-Developer
 * from STEP Tools, Inc. (www.steptools.com) 
 */

FILE_DESCRIPTION(
/* description */ (''),
/* implementation_level */ '2;1');

FILE_NAME(
/* name */ 
'D:\\SFC\\3-Autodesk\\2014-01-30 GrabCAD\\11 - Albumul de piese\\Part 
001.stp',
/* time_stamp */ '2015-03-25T08:45:59+02:00',
/* author */ ('SFC-LNV'),
/* organization */ (''),
/* preprocessor_version */ 'ST-DEVELOPER v15.2',
/* originating_system */ 'Autodesk Inventor 2014',
/* authorisation */ '');

FILE_SCHEMA (('AUTOMOTIVE_DESIGN { 1 0 10303 214 3 1 1 }'));
ENDSEC;

DATA;
#10=MECHANICAL_DESIGN_GEOMETRIC_PRESENTATION_REPRESENTATION('',(#13),#243);
#11=SHAPE_REPRESENTATION_RELATIONSHIP('SRR','None',#252,#12);
#12=ADVANCED_BREP_SHAPE_REPRESENTATION($,(#143),#242);
#13=STYLED_ITEM($,(#261),#143);
#14=CONICAL_SURFACE($,#153,1.91132486540519,30.);
#15=CONICAL_SURFACE($,#154,1.91132486540519,30.);
#16=CIRCLE($,#148,2.2);
#17=CIRCLE($,#149,2.2);
#18=CIRCLE($,#151,1.45);
#19=CIRCLE($,#152,1.62264973081038);
#20=CIRCLE($,#155,1.62264973081038);
#21=CIRCLE($,#157,1.45);
#22=CYLINDRICAL_SURFACE($,#147,2.2);
#23=CYLINDRICAL_SURFACE($,#158,1.45);
#24=FACE_OUTER_BOUND($,#32,.T.);
#25=FACE_OUTER_BOUND($,#33,.T.);
#26=FACE_OUTER_BOUND($,#34,.T.);
#27=FACE_OUTER_BOUND($,#35,.T.);
#28=FACE_OUTER_BOUND($,#36,.T.);
#29=FACE_OUTER_BOUND($,#37,.T.);
#30=FACE_OUTER_BOUND($,#38,.T.);
#31=FACE_OUTER_BOUND($,#39,.T.);
#32=EDGE_LOOP($,(#94,#95,#96,#97,#98,#99));
#33=EDGE_LOOP($,(#100,#101,#102,#103,#104,#105));
#34=EDGE_LOOP($,(#106,#107,#108,#109));
#35=EDGE_LOOP($,(#110,#111,#112,#113));
#36=EDGE_LOOP($,(#114,#115,#116,#117));
#37=EDGE_LOOP($,(#118,#119,#120,#121));
#38=EDGE_LOOP($,(#122,#123,#124,#125));
#39=EDGE_LOOP($,(#126,#127,#128,#129));
#40=LINE($,#205,#52);
#41=LINE($,#207,#53);
#42=LINE($,#209,#54);
#43=LINE($,#211,#55);
#44=LINE($,#213,#56);
#45=LINE($,#214,#57);
#46=LINE($,#218,#58);
#47=LINE($,#220,#59);
#48=LINE($,#222,#60);
#49=LINE($,#224,#61);
#50=LINE($,#226,#62);
#51=LINE($,#227,#63);
#52=VECTOR($,#163,1.15470053837925);
#53=VECTOR($,#164,14.);
#54=VECTOR($,#165,1.15470053837925);
#55=VECTOR($,#166,0.172649730810375);
#56=VECTOR($,#167,16.);
#57=VECTOR($,#168,0.172649730810375);
#58=VECTOR($,#171,1.15470053837925);
#59=VECTOR($,#172,0.172649730810375);
#60=VECTOR($,#173,16.);
#61=VECTOR($,#174,0.172649730810375);
#62=VECTOR($,#175,1.15470053837925);
#63=VECTOR($,#176,14.);
#64=VERTEX_POINT($,#203);
#65=VERTEX_POINT($,#204);
#66=VERTEX_POINT($,#206);
#67=VERTEX_POINT($,#208);
#68=VERTEX_POINT($,#210);
#69=VERTEX_POINT($,#212);
#70=VERTEX_POINT($,#216);
#71=VERTEX_POINT($,#217);
#72=VERTEX_POINT($,#219);
#73=VERTEX_POINT($,#221);
#74=VERTEX_POINT($,#223);
#75=VERTEX_POINT($,#225);
#76=EDGE_CURVE($,#64,#65,#40,.T.);
#77=EDGE_CURVE($,#66,#64,#41,.T.);
#78=EDGE_CURVE($,#67,#66,#42,.T.);
#79=EDGE_CURVE($,#68,#67,#43,.T.);
#80=EDGE_CURVE($,#69,#68,#44,.T.);
#81=EDGE_CURVE($,#65,#69,#45,.T.);
#82=EDGE_CURVE($,#70,#71,#46,.T.);
#83=EDGE_CURVE($,#72,#70,#47,.T.);
#84=EDGE_CURVE($,#73,#72,#48,.T.);
#85=EDGE_CURVE($,#74,#73,#49,.T.);
#86=EDGE_CURVE($,#75,#74,#50,.T.);
#87=EDGE_CURVE($,#71,#75,#51,.T.);
#88=EDGE_CURVE($,#75,#66,#16,.T.);
#89=EDGE_CURVE($,#71,#64,#17,.T.);
#90=EDGE_CURVE($,#73,#68,#18,.T.);
#91=EDGE_CURVE($,#74,#67,#19,.T.);
#92=EDGE_CURVE($,#70,#65,#20,.T.);
#93=EDGE_CURVE($,#72,#69,#21,.T.);
#94=ORIENTED_EDGE($,*,*,#76,.F.);
#95=ORIENTED_EDGE($,*,*,#77,.F.);
#96=ORIENTED_EDGE($,*,*,#78,.F.);
#97=ORIENTED_EDGE($,*,*,#79,.F.);
#98=ORIENTED_EDGE($,*,*,#80,.F.);
#99=ORIENTED_EDGE($,*,*,#81,.F.);
#100=ORIENTED_EDGE($,*,*,#82,.F.);
#101=ORIENTED_EDGE($,*,*,#83,.F.);
#102=ORIENTED_EDGE($,*,*,#84,.F.);
#103=ORIENTED_EDGE($,*,*,#85,.F.);
#104=ORIENTED_EDGE($,*,*,#86,.F.);
#105=ORIENTED_EDGE($,*,*,#87,.F.);
#106=ORIENTED_EDGE($,*,*,#87,.T.);
#107=ORIENTED_EDGE($,*,*,#88,.T.);
#108=ORIENTED_EDGE($,*,*,#77,.T.);
#109=ORIENTED_EDGE($,*,*,#89,.F.);
#110=ORIENTED_EDGE($,*,*,#85,.T.);
#111=ORIENTED_EDGE($,*,*,#90,.T.);
#112=ORIENTED_EDGE($,*,*,#79,.T.);
#113=ORIENTED_EDGE($,*,*,#91,.F.);
#114=ORIENTED_EDGE($,*,*,#86,.T.);
#115=ORIENTED_EDGE($,*,*,#91,.T.);
#116=ORIENTED_EDGE($,*,*,#78,.T.);
#117=ORIENTED_EDGE($,*,*,#88,.F.);
#118=ORIENTED_EDGE($,*,*,#82,.T.);
#119=ORIENTED_EDGE($,*,*,#89,.T.);
#120=ORIENTED_EDGE($,*,*,#76,.T.);
#121=ORIENTED_EDGE($,*,*,#92,.F.);
#122=ORIENTED_EDGE($,*,*,#83,.T.);
#123=ORIENTED_EDGE($,*,*,#92,.T.);
#124=ORIENTED_EDGE($,*,*,#81,.T.);
#125=ORIENTED_EDGE($,*,*,#93,.F.);
#126=ORIENTED_EDGE($,*,*,#84,.T.);
#127=ORIENTED_EDGE($,*,*,#93,.T.);
#128=ORIENTED_EDGE($,*,*,#80,.T.);
#129=ORIENTED_EDGE($,*,*,#90,.F.);
#130=PLANE($,#145);
#131=PLANE($,#146);
#132=PLANE($,#150);
#133=PLANE($,#156);
#134=ADVANCED_FACE($,(#24),#130,.F.);
#135=ADVANCED_FACE($,(#25),#131,.F.);
#136=ADVANCED_FACE($,(#26),#22,.T.);
#137=ADVANCED_FACE($,(#27),#132,.T.);
#138=ADVANCED_FACE($,(#28),#14,.T.);
#139=ADVANCED_FACE($,(#29),#15,.T.);
#140=ADVANCED_FACE($,(#30),#133,.T.);
#141=ADVANCED_FACE($,(#31),#23,.F.);
#142=CLOSED_SHELL($,(#134,#135,#136,#137,#138,#139,#140,#141));
#143=MANIFOLD_SOLID_BREP('Solid1',#142);
#144=AXIS2_PLACEMENT_3D('placement',#201,#159,#160);
#145=AXIS2_PLACEMENT_3D($,#202,#161,#162);
#146=AXIS2_PLACEMENT_3D($,#215,#169,#170);
#147=AXIS2_PLACEMENT_3D($,#228,#177,#178);
#148=AXIS2_PLACEMENT_3D($,#229,#179,#180);
#149=AXIS2_PLACEMENT_3D($,#230,#181,#182);
#150=AXIS2_PLACEMENT_3D($,#231,#183,#184);
#151=AXIS2_PLACEMENT_3D($,#232,#185,#186);
#152=AXIS2_PLACEMENT_3D($,#233,#187,#188);
#153=AXIS2_PLACEMENT_3D($,#234,#189,#190);
#154=AXIS2_PLACEMENT_3D($,#235,#191,#192);
#155=AXIS2_PLACEMENT_3D($,#236,#193,#194);
#156=AXIS2_PLACEMENT_3D($,#237,#195,#196);
#157=AXIS2_PLACEMENT_3D($,#238,#197,#198);
#158=AXIS2_PLACEMENT_3D($,#239,#199,#200);
#159=DIRECTION('axis',(0.,0.,1.));
#160=DIRECTION('refdir',(1.,0.,0.));
#161=DIRECTION('center_axis',(-0.344827586206897,0.,0.938666040608014));
#162=DIRECTION('ref_axis',(0.938666040608014,0.,0.344827586206897));
#163=DIRECTION($,(-0.469333020304007,0.866025403784439,-0.172413793103448));
#164=DIRECTION($,(0.,1.,0.));
#165=DIRECTION($,(0.469333020304007,0.866025403784438,0.172413793103448));
#166=DIRECTION($,(0.938666040608014,0.,0.344827586206897));
#167=DIRECTION($,(0.,-1.,0.));
#168=DIRECTION($,(-0.938666040608014,0.,-0.344827586206897));
#169=DIRECTION('center_axis',(-0.344827586206897,0.,-0.938666040608014));
#170=DIRECTION('ref_axis',(-0.938666040608014,0.,0.344827586206897));
#171=DIRECTION($,(0.469333020304007,-0.866025403784439,-0.172413793103449));
#172=DIRECTION($,(0.938666040608014,0.,-0.344827586206897));
#173=DIRECTION($,(0.,1.,0.));
#174=DIRECTION($,(-0.938666040608014,0.,0.344827586206897));
#175=DIRECTION($,(-0.469333020304007,-0.866025403784438,0.172413793103448));
#176=DIRECTION($,(0.,-1.,0.));
#177=DIRECTION('center_axis',(0.,1.,0.));
#178=DIRECTION('ref_axis',(0.,0.,1.));
#179=DIRECTION('center_axis',(0.,1.,0.));
#180=DIRECTION('ref_axis',(1.,0.,0.));
#181=DIRECTION('center_axis',(0.,1.,0.));
#182=DIRECTION('ref_axis',(1.,0.,0.));
#183=DIRECTION('center_axis',(0.,-1.,0.));
#184=DIRECTION('ref_axis',(0.,0.,-1.));
#185=DIRECTION('center_axis',(0.,1.,0.));
#186=DIRECTION('ref_axis',(1.,0.,0.));
#187=DIRECTION('center_axis',(0.,1.,0.));
#188=DIRECTION('ref_axis',(1.,0.,0.));
#189=DIRECTION('center_axis',(0.,1.,0.));
#190=DIRECTION('ref_axis',(0.,0.,1.));
#191=DIRECTION('center_axis',(0.,-1.,0.));
#192=DIRECTION('ref_axis',(0.,0.,1.));
#193=DIRECTION('center_axis',(0.,1.,0.));
#194=DIRECTION('ref_axis',(1.,0.,0.));
#195=DIRECTION('center_axis',(0.,1.,0.));
#196=DIRECTION('ref_axis',(0.,0.,1.));
#197=DIRECTION('center_axis',(0.,1.,0.));
#198=DIRECTION('ref_axis',(1.,0.,0.));
#199=DIRECTION('center_axis',(0.,1.,0.));
#200=DIRECTION('ref_axis',(0.,0.,1.));
#201=CARTESIAN_POINT('',(0.,0.,0.));
#202=CARTESIAN_POINT('Origin',(1.36106575888162,0.,0.5));
#203=CARTESIAN_POINT('',(2.06506528933763,7.,0.758620689655173));
#204=CARTESIAN_POINT('',(1.52312619811343,8.,0.559534389934612));
#205=CARTESIAN_POINT($,(1.79409574372553,7.5,0.659077539794892));
#206=CARTESIAN_POINT('',(2.06506528933763,-7.,0.758620689655172));
#207=CARTESIAN_POINT($,(2.06506528933763,0.,0.758620689655173));
#208=CARTESIAN_POINT('',(1.52312619811343,-8.,0.559534389934612));
#209=CARTESIAN_POINT($,(1.79409574372553,-7.5,0.659077539794892));
#210=CARTESIAN_POINT('',(1.36106575888162,-8.,0.5));
#211=CARTESIAN_POINT($,(0.943140844632782,-8.,0.34647144654045));
#212=CARTESIAN_POINT('',(1.36106575888162,8.,0.5));
#213=CARTESIAN_POINT($,(1.36106575888162,0.,0.5));
#214=CARTESIAN_POINT($,(0.915199389592814,8.,0.336206896551724));
#215=CARTESIAN_POINT('Origin',(2.06506528933763,0.,-0.758620689655173));
#216=CARTESIAN_POINT('',(1.52312619811343,8.,-0.559534389934612));
#217=CARTESIAN_POINT('',(2.06506528933763,7.,-0.758620689655173));
#218=CARTESIAN_POINT($,(1.79409574372553,7.5,-0.659077539794892));
#219=CARTESIAN_POINT('',(1.36106575888162,8.,-0.5));
#220=CARTESIAN_POINT($,(0.797866134516811,8.,-0.293103448275862));
#221=CARTESIAN_POINT('',(1.36106575888162,-8.,-0.5));
#222=CARTESIAN_POINT($,(1.36106575888162,0.,-0.5));
#223=CARTESIAN_POINT('',(1.52312619811343,-8.,-0.559534389934612));
#224=CARTESIAN_POINT($,(0.769924679476844,-8.,-0.282838898287136));
#225=CARTESIAN_POINT('',(2.06506528933763,-7.,-0.758620689655172));
#226=CARTESIAN_POINT($,(1.79409574372553,-7.5,-0.659077539794892));
#227=CARTESIAN_POINT($,(2.06506528933763,0.,-0.758620689655173));
#228=CARTESIAN_POINT('Origin',(0.,0.,0.));
#229=CARTESIAN_POINT('Origin',(0.,-7.,0.));
#230=CARTESIAN_POINT('Origin',(0.,7.,0.));
#231=CARTESIAN_POINT('Origin',(0.,-8.,1.62264973081038));
#232=CARTESIAN_POINT('Origin',(0.,-8.,0.));
#233=CARTESIAN_POINT('Origin',(0.,-8.,0.));
#234=CARTESIAN_POINT('Origin',(0.,-7.5,0.));
#235=CARTESIAN_POINT('Origin',(0.,7.5,0.));
#236=CARTESIAN_POINT('Origin',(0.,8.,0.));
#237=CARTESIAN_POINT('Origin',(0.,8.,1.45));
#238=CARTESIAN_POINT('Origin',(0.,8.,0.));
#239=CARTESIAN_POINT('Origin',(0.,0.,0.));
#240=UNCERTAINTY_MEASURE_WITH_UNIT(LENGTH_MEASURE(0.01),#244,
'DISTANCE_ACCURACY_VALUE',
'Maximum model space distance between geometric entities at asserted c
onnectivities');
#241=UNCERTAINTY_MEASURE_WITH_UNIT(LENGTH_MEASURE(1.E-006),#244,
'DISTANCE_ACCURACY_VALUE',
'Maximum model space distance between geometric entities at asserted c
onnectivities');
#242=(
GEOMETRIC_REPRESENTATION_CONTEXT(3)
GLOBAL_UNCERTAINTY_ASSIGNED_CONTEXT((#240))
GLOBAL_UNIT_ASSIGNED_CONTEXT((#244,#247,#245))
REPRESENTATION_CONTEXT('','3D')
);
#243=(
GEOMETRIC_REPRESENTATION_CONTEXT(3)
GLOBAL_UNCERTAINTY_ASSIGNED_CONTEXT((#241))
GLOBAL_UNIT_ASSIGNED_CONTEXT((#244,#247,#245))
REPRESENTATION_CONTEXT('','3D')
);
#244=(
LENGTH_UNIT()
NAMED_UNIT(*)
SI_UNIT(.MILLI.,.METRE.)
);
#245=(
NAMED_UNIT(*)
SI_UNIT($,.STERADIAN.)
SOLID_ANGLE_UNIT()
);
#246=DIMENSIONAL_EXPONENTS(0.,0.,0.,0.,0.,0.,0.);
#247=(
CONVERSION_BASED_UNIT('degree',#249)
NAMED_UNIT(#246)
PLANE_ANGLE_UNIT()
);
#248=(
NAMED_UNIT(*)
PLANE_ANGLE_UNIT()
SI_UNIT($,.RADIAN.)
);
#249=PLANE_ANGLE_MEASURE_WITH_UNIT(PLANE_ANGLE_MEASURE(0.01745329252),#248);
#250=SHAPE_DEFINITION_REPRESENTATION(#251,#252);
#251=PRODUCT_DEFINITION_SHAPE('',$,#254);
#252=SHAPE_REPRESENTATION('',(#144),#242);
#253=PRODUCT_DEFINITION_CONTEXT('part definition',#258,'design');
#254=PRODUCT_DEFINITION('Part 001','Part 001',#255,#253);
#255=PRODUCT_DEFINITION_FORMATION('',$,#260);
#256=PRODUCT_RELATED_PRODUCT_CATEGORY('Part 001','Part 001',(#260));
#257=APPLICATION_PROTOCOL_DEFINITION('international standard',
'automotive_design',2009,#258);
#258=APPLICATION_CONTEXT(
'Core Data for Automotive Mechanical Design Process');
#259=PRODUCT_CONTEXT('part definition',#258,'mechanical');
#260=PRODUCT('Part 001','Part 001',$,(#259));
#261=PRESENTATION_STYLE_ASSIGNMENT((#262));
#262=SURFACE_STYLE_USAGE(.BOTH.,#263);
#263=SURFACE_SIDE_STYLE($,(#264));
#264=SURFACE_STYLE_FILL_AREA(#265);
#265=FILL_AREA_STYLE($,(#266));
#266=FILL_AREA_STYLE_COLOUR($,#267);
#267=COLOUR_RGB('',0.745098039215686,0.737254901960784,0.729411764705882);
ENDSEC;
END-ISO-10303-21;
